匿名使用者
匿名使用者 發問時間: 娛樂與音樂其他:娛樂 · 1 0 年前

請問誰有SHE的”魔力”的和弦吉他譜!?(PS 不要簡譜的)

有人有\"魔力\"這首歌合弦吉他譜嘛!?盡量不要是簡譜~我看不大懂~

如果是自己寫的也OK 只要和ㄉ好聽就好了^^\"謝謝捏

2 個解答

評分
  • 最佳解答

    魔力 

    詞_/_姚若龍

    曲_/_莊立帆

    [_原調_=_變調夾_4_品_]

    _______C_________F

    I_have_you_to_be_with

    _____Em______________Am

    Everything_will_be_easy

    F________Dm7______G

    曬的陽光_淋的雨滴_都值得回憶

    _______C_________F

    I_have_you_to_be_with

    ____Em_________Am

    才懂心不夠近_才怕距離

    F________Dm7______G

    心電感應_絕不斷訊_會如影隨形

    C_______Em_Am______Em

    曾灰心以為_我來錯了世界

    F_________Em_____F_______G

    太多想法很另類_找不到人了解

    C_______Em___Am______Em

    當我說的感覺_牽動著你的臉

    F__________Dm______G

    互動的淚_讓我們變得特別

    ____C_____F______Em______Am

    你是我的魔力_想要勇敢就想你

    F________Dm7______G

    一眨眼睛_把不如意_都變成流星

    ____C_____F______Em______Am

    你是我的魔力_心情不好我就想你

    F________Dm7______G

    刪除憂郁_復制甜蜜_笑容不結冰

    參考資料: http://www.gita2.com/
  • ?
    Lv 5
    1 0 年前

    She Will Be Loved

    Maroon 5

    INTRO/VERSE

    Cm7 Bb7 Cm7 Bb7

    ----------------------------------------------------------------------------

    --------------------------------------8-------------------------------------

    -----8-8-8-8----------7--7-------7-------8-8-8-8---------7--7--------7---

    -----8-8-8-8----------6--6--6------------8-8-8-8---------6--6--6---------

    -------------------8-----8-----8----------------------8-----8-----8--------

    --8------------6---------6-----------8-------------6--------6--------------

    2nd guitar enters on "I drove for miles and miles and ..."hold chord throughout:

    ------------------------------------------------------

    ------8-----------------------------------------------

    --10-----10----------10-------10------10-----------

    --------------12/13-------13------12---------------

    ------------------------------------------------------

    ------------------------------------------------------

    (1st guitar continues verse pattern during 2nd guitar part)

    CHORUS

    Guitar 1:

    Ebsus2 Bbsus4 Cm7 Bbsus4

    -----6-------6-------6-------6-------6-------6-------6-------6-----

    -------6-------6-------6-------6-------6-------6-------6-------6---

    -7-8-----7-8-----7-8-----7-8-----7-8-----7-8-----7-8-----7-8-----

    ----------------------------------------------------------------------

    ----------------------------------------------------------------------

    ----------------------------------------------------------------------

    Ebsus2 Bbsus4 Cm7 Ab

    -----6-------6-------6-------6-------6-------6-------6-------6------

    -------6-------6-------6-------6-------8-------8-------9-------9----

    -7-8-----7-8-----7-8-----7-8-----7-8-----7-8-----7-8-----7-8------

    -----------------------------------------------------------------------

    -----------------------------------------------------------------------

    -----------------------------------------------------------------------

    Guitar 2 strums chords above

    (chorus repeats)

    verse

    chorus

    BRIDGE

    Cm7 - Bb7 - Cm7 - Bb7 - Cm7 - Bb7 - Cm7 - Bb7 - Ab

    verse

    chorus

    參考資料: ^^Me&網路!
還有問題?馬上發問,尋求解答。