士豪 發問時間: 娛樂與音樂其他:娛樂 · 8 年前

求譜-閉上雙眼的時候

求吉他ㄉ簡譜,如果是吉他六線譜那就更棒ㄌ^^

送20點喔!!!謝謝高手幫幫忙!!

1 個解答

評分
  • 最佳解答

    閉上雙眼的時候

    C...............................................Capo:3

    閉上雙眼的時候 遺忘無所謂的眼光

    C...............................F.........G.......C

    正在最黑暗的地方 最能確定心中的最渴望

    ..............F....G..........C

    越陰暗的天....星星越耀眼

    .............F....G..........C

    四周越漆黑 陽光更明顯

    .............F....G

    如果你也不怕黑

    Em......Am.................F.....G...........C

    閉........上眼睛 就能...遇見..真正的自己

    移調夾夾第三格

    指法大致上彈奏方式 比較要注意的地方

    C

    ------------------------------│---------------------------

    ---------------3------1------│--------------1-----------

    ---------0-------------------│---------0----------0----

    -----2------2-----2-----2--│-----2-----2----2----2--

    --3--------------------------│--3-----------------------

    ------------------------------│---------------------------

    F.................G

    ----------------│---------------│

    ------------2--│-----------2--│

    ---------1-----│--------1-----│

    ------T--------│-----T--------│

    ----------------│---------------│

    --T------------│--T------------│

    C

    ---------------- ~ ----3------------│

    --------------2-------------2-------│

    ----------1---------------------1----│

    -----T-------------------------------│

    --T----------------------------------│

    --------------------------------------│ 六線譜網址

    http://fjasonlin.blogspot.tw/

    參考資料: 宸瑄
還有問題?馬上發問,尋求解答。